ISO-10303-21;
HEADER;
FILE_DESCRIPTION (( 'STEP AP203' ),
    '1' );
FILE_NAME ('BK7-LNPBSC-12.7-1310.STEP',
    '2021-01-05T02:00:39',
    ( '' ),
    ( '' ),
    'SwSTEP 2.0',
    'SolidWorks 2020',
    '' );
FILE_SCHEMA (( 'CONFIG_CONTROL_DESIGN' ));
ENDSEC;

DATA;
#1 = DIRECTION ( 'NONE',  ( 0.000000000000000000, -0.000000000000000000, 1.000000000000000000 ) ) ;
#2 = PERSON_AND_ORGANIZATION ( #176, #281 ) ;
#3 = DIRECTION ( 'NONE',  ( 0.000000000000000000, 0.000000000000000000, -1.000000000000000000 ) ) ;
#4 = VECTOR ( 'NONE', #196, 1000.000000000000000 ) ;
#5 = CARTESIAN_POINT ( 'NONE',  ( -6.350000000000002309, 6.350000000000001421, 6.349999999999999645 ) ) ;
#6 = ADVANCED_FACE ( 'NONE', ( #222 ), #200, .F. ) ;
#7 = CC_DESIGN_SECURITY_CLASSIFICATION ( #38, ( #309 ) ) ;
#8 = EDGE_LOOP ( 'NONE', ( #112, #91, #268 ) ) ;
#9 = EDGE_CURVE ( 'NONE', #16, #299, #174, .T. ) ;
#10 = FACE_OUTER_BOUND ( 'NONE', #148, .T. ) ;
#11 = CC_DESIGN_APPROVAL ( #83, ( #309 ) ) ;
#12 = LINE ( 'NONE', #36, #4 ) ;
#13 = PLANE ( 'NONE',  #105 ) ;
#14 = CC_DESIGN_PERSON_AND_ORGANIZATION_ASSIGNMENT ( #227, #98, ( #297 ) ) ;
#15 = DIRECTION ( 'NONE',  ( 1.000000000000000000, 0.000000000000000000, 0.000000000000000000 ) ) ;
#16 = VERTEX_POINT ( 'NONE', #97 ) ;
#17 = AXIS2_PLACEMENT_3D ( 'NONE', #187, #278, #303 ) ;
#18 = CARTESIAN_POINT ( 'NONE',  ( 6.349999999999998757, 6.349999999999998757, 6.349999999999999645 ) ) ;
#19 = VERTEX_POINT ( 'NONE', #109 ) ;
#20 = PERSON_AND_ORGANIZATION ( #176, #281 ) ;
#21 = ORIENTED_EDGE ( 'NONE', *, *, #115, .T. ) ;
#22 = ORIENTED_EDGE ( 'NONE', *, *, #9, .F. ) ;
#23 = APPROVAL_STATUS ( 'not_yet_approved' ) ;
#24 = LOCAL_TIME ( 10, 0, 39.00000000000000000, #256 ) ;
#25 = DIRECTION ( 'NONE',  ( 1.000000000000000000, -2.220446049250312588E-16, 0.000000000000000000 ) ) ;
#26 = ADVANCED_FACE ( 'NONE', ( #10 ), #279, .F. ) ;
#27 = CALENDAR_DATE ( 2021, 5, 1 ) ;
#28 = CARTESIAN_POINT ( 'NONE',  ( -6.349999999999999645, -6.350000000000000533, 6.349999999999999645 ) ) ;
#29 = ADVANCED_FACE ( 'NONE', ( #53 ), #257, .F. ) ;
#30 = APPROVAL_STATUS ( 'not_yet_approved' ) ;
#31 = CARTESIAN_POINT ( 'NONE',  ( -6.349999999999998757, -6.349999999999997868, 6.349999999999999645 ) ) ;
#32 = ADVANCED_FACE ( 'NONE', ( #161 ), #208, .T. ) ;
#33 = EDGE_CURVE ( 'NONE', #202, #152, #126, .T. ) ;
#34 = AXIS2_PLACEMENT_3D ( 'NONE', #220, #241, #135 ) ;
#35 = CARTESIAN_POINT ( 'NONE',  ( -6.349999999999999645, -6.350000000000000533, 6.349999999999999645 ) ) ;
#36 = CARTESIAN_POINT ( 'NONE',  ( -6.349999999999999645, -6.350000000000000533, -6.349999999999999645 ) ) ;
#37 = CARTESIAN_POINT ( 'NONE',  ( -6.349999999999998757, -6.349999999999997868, -6.349999999999999645 ) ) ;
#38 = SECURITY_CLASSIFICATION ( '', '', #228 ) ;
#39 = LINE ( 'NONE', #18, #311 ) ;
#40 = CARTESIAN_POINT ( 'NONE',  ( -6.349999999999999645, -6.350000000000000533, 6.349999999999999645 ) ) ;
#41 = ORIENTED_EDGE ( 'NONE', *, *, #156, .T. ) ;
#42 = DIRECTION ( 'NONE',  ( -1.000000000000000000, 2.903408047666378392E-16, 0.000000000000000000 ) ) ;
#43 = EDGE_LOOP ( 'NONE', ( #172, #293, #94 ) ) ;
#44 = ADVANCED_FACE ( 'NONE', ( #104 ), #209, .F. ) ;
#45 = CLOSED_SHELL ( 'NONE', ( #230, #44, #210, #32, #103 ) ) ;
#46 = LOCAL_TIME ( 10, 0, 39.00000000000000000, #50 ) ;
#47 = CARTESIAN_POINT ( 'NONE',  ( 6.349999999999999645, -6.350000000000000533, 6.349999999999999645 ) ) ;
#48 = COORDINATED_UNIVERSAL_TIME_OFFSET ( 8, 0, .AHEAD. ) ;
#49 = ORIENTED_EDGE ( 'NONE', *, *, #242, .F. ) ;
#50 = COORDINATED_UNIVERSAL_TIME_OFFSET ( 8, 0, .AHEAD. ) ;
#51 = VERTEX_POINT ( 'NONE', #260 ) ;
#52 = PERSON_AND_ORGANIZATION_ROLE ( 'creator' ) ;
#53 = FACE_OUTER_BOUND ( 'NONE', #190, .T. ) ;
#54 = DIRECTION ( 'NONE',  ( 1.000000000000000000, 0.000000000000000000, 0.000000000000000000 ) ) ;
#55 = CARTESIAN_POINT ( 'NONE',  ( 6.349999999999996980, 6.349999999999996980, 6.349999999999999645 ) ) ;
#56 = FACE_OUTER_BOUND ( 'NONE', #249, .T. ) ;
#57 = APPROVAL_PERSON_ORGANIZATION ( #321, #142, #181 ) ;
#58 = LINE ( 'NONE', #77, #314 ) ;
#59 = CARTESIAN_POINT ( 'NONE',  ( 6.349999999999996980, 6.349999999999996980, -6.349999999999999645 ) ) ;
#60 = DIRECTION ( 'NONE',  ( 1.000000000000000000, 0.000000000000000000, 0.000000000000000000 ) ) ;
#61 = AXIS2_PLACEMENT_3D ( 'NONE', #145, #291, #68 ) ;
#62 = CARTESIAN_POINT ( 'NONE',  ( -6.350000000000002309, 6.350000000000001421, 6.349999999999999645 ) ) ;
#63 = ORIENTED_EDGE ( 'NONE', *, *, #66, .T. ) ;
#64 = CARTESIAN_POINT ( 'NONE',  ( 6.349999999999996980, 6.349999999999996980, 6.349999999999999645 ) ) ;
#65 = ORIENTED_EDGE ( 'NONE', *, *, #284, .T. ) ;
#66 = EDGE_CURVE ( 'NONE', #316, #99, #128, .T. ) ;
#67 = PLANE ( 'NONE',  #188 ) ;
#68 = DIRECTION ( 'NONE',  ( 0.7071067811865474617, 0.7071067811865474617, 0.000000000000000000 ) ) ;
#69 = CLOSED_SHELL ( 'NONE', ( #6, #29, #26, #162, #159 ) ) ;
#70 = APPROVAL_ROLE ( '' ) ;
#71 = AXIS2_PLACEMENT_3D ( 'NONE', #78, #102, #54 ) ;
#72 = VERTEX_POINT ( 'NONE', #106 ) ;
#73 = DATE_AND_TIME ( #157, #110 ) ;
#74 = EDGE_LOOP ( 'NONE', ( #214, #141, #178 ) ) ;
#75 = APPROVAL_STATUS ( 'not_yet_approved' ) ;
#76 = APPLICATION_CONTEXT ( 'configuration controlled 3d designs of mechanical parts and assemblies' ) ;
#77 = CARTESIAN_POINT ( 'NONE',  ( 6.349999999999998757, 6.349999999999998757, 6.349999999999999645 ) ) ;
#78 = CARTESIAN_POINT ( 'NONE',  ( 0.000000000000000000, 0.000000000000000000, 0.000000000000000000 ) ) ;
#79 = DIRECTION ( 'NONE',  ( 0.000000000000000000, 0.000000000000000000, 1.000000000000000000 ) ) ;
#80 = EDGE_CURVE ( 'NONE', #131, #72, #206, .T. ) ;
#81 = DIRECTION ( 'NONE',  ( 0.000000000000000000, 0.000000000000000000, 1.000000000000000000 ) ) ;
#82 = DIRECTION ( 'NONE',  ( -0.7071067811865474617, -0.7071067811865474617, 0.000000000000000000 ) ) ;
#83 = APPROVAL ( #30, 'UNSPECIFIED' ) ;
#84 = APPROVAL_PERSON_ORGANIZATION ( #203, #107, #70 ) ;
#85 = EDGE_CURVE ( 'NONE', #152, #316, #158, .T. ) ;
#86 = CARTESIAN_POINT ( 'NONE',  ( 6.349999999999996980, 6.349999999999996980, -6.349999999999999645 ) ) ;
#87 = EDGE_CURVE ( 'NONE', #202, #237, #238, .T. ) ;
#88 = CARTESIAN_POINT ( 'NONE',  ( 0.000000000000000000, 0.000000000000000000, 6.349999999999999645 ) ) ;
#89 = LINE ( 'NONE', #59, #286 ) ;
#90 = APPLICATION_CONTEXT ( 'configuration controlled 3d designs of mechanical parts and assemblies' ) ;
#91 = ORIENTED_EDGE ( 'NONE', *, *, #296, .T. ) ;
#92 = VECTOR ( 'NONE', #318, 1000.000000000000000 ) ;
#93 = PLANE ( 'NONE',  #34 ) ;
#94 = ORIENTED_EDGE ( 'NONE', *, *, #164, .F. ) ;
#95 = LINE ( 'NONE', #264, #217 ) ;
#96 = DATE_TIME_ROLE ( 'classification_date' ) ;
#97 = CARTESIAN_POINT ( 'NONE',  ( 6.349999999999999645, -6.350000000000000533, 6.349999999999999645 ) ) ;
#98 = PERSON_AND_ORGANIZATION_ROLE ( 'creator' ) ;
#99 = VERTEX_POINT ( 'NONE', #86 ) ;
#100 = EDGE_CURVE ( 'NONE', #299, #149, #192, .T. ) ;
#101 = PRODUCT_DEFINITION_SHAPE ( 'NONE', 'NONE',  #297 ) ;
#102 = DIRECTION ( 'NONE',  ( 0.000000000000000000, 0.000000000000000000, 1.000000000000000000 ) ) ;
#103 = ADVANCED_FACE ( 'NONE', ( #56 ), #186, .F. ) ;
#104 = FACE_OUTER_BOUND ( 'NONE', #313, .T. ) ;
#105 = AXIS2_PLACEMENT_3D ( 'NONE', #64, #133, #144 ) ;
#106 = CARTESIAN_POINT ( 'NONE',  ( -6.349999999999999645, -6.350000000000000533, -6.349999999999999645 ) ) ;
#107 = APPROVAL ( #23, 'UNSPECIFIED' ) ;
#108 = LINE ( 'NONE', #305, #183 ) ;
#109 = CARTESIAN_POINT ( 'NONE',  ( -6.350000000000002309, 6.350000000000001421, -6.349999999999999645 ) ) ;
#110 = LOCAL_TIME ( 10, 0, 39.00000000000000000, #270 ) ;
#111 = CARTESIAN_POINT ( 'NONE',  ( -6.349999999999998757, -6.349999999999997868, 6.349999999999999645 ) ) ;
#112 = ORIENTED_EDGE ( 'NONE', *, *, #185, .T. ) ;
#113 = ORIENTED_EDGE ( 'NONE', *, *, #100, .T. ) ;
#114 = DIRECTION ( 'NONE',  ( -2.903408047666378392E-16, -1.000000000000000000, 0.000000000000000000 ) ) ;
#115 = EDGE_CURVE ( 'NONE', #51, #149, #58, .T. ) ;
#116 = ORIENTED_EDGE ( 'NONE', *, *, #242, .T. ) ;
#117 = ORIENTED_EDGE ( 'NONE', *, *, #169, .F. ) ;
#118 = PERSON_AND_ORGANIZATION ( #176, #281 ) ;
#119 = ORIENTED_EDGE ( 'NONE', *, *, #198, .T. ) ;
#120 = VECTOR ( 'NONE', #184, 1000.000000000000000 ) ;
#121 = VECTOR ( 'NONE', #168, 999.9999999999998863 ) ;
#122 = PERSON_AND_ORGANIZATION ( #176, #281 ) ;
#123 = DIRECTION ( 'NONE',  ( -2.220446049250312588E-16, 1.000000000000000000, 0.000000000000000000 ) ) ;
#124 = CC_DESIGN_PERSON_AND_ORGANIZATION_ASSIGNMENT ( #269, #274, ( #309 ) ) ;
#125 = DATE_AND_TIME ( #27, #138 ) ;
#126 = LINE ( 'NONE', #31, #240 ) ;
#127 = CALENDAR_DATE ( 2021, 5, 1 ) ;
#128 = LINE ( 'NONE', #55, #280 ) ;
#129 = DIRECTION ( 'NONE',  ( -6.829619984160658046E-17, 1.000000000000000000, -0.000000000000000000 ) ) ;
#130 = AXIS2_PLACEMENT_3D ( 'NONE', #234, #79, #123 ) ;
#131 = VERTEX_POINT ( 'NONE', #28 ) ;
#132 = CARTESIAN_POINT ( 'NONE',  ( 6.349999999999996980, 6.349999999999996980, 6.349999999999999645 ) ) ;
#133 = DIRECTION ( 'NONE',  ( -0.7071067811865475727, 0.7071067811865475727, 0.000000000000000000 ) ) ;
#134 = ORIENTED_EDGE ( 'NONE', *, *, #87, .F. ) ;
#135 = DIRECTION ( 'NONE',  ( 1.000000000000000000, 0.000000000000000000, 0.000000000000000000 ) ) ;
#136 = VECTOR ( 'NONE', #301, 1000.000000000000000 ) ;
#137 = ADVANCED_BREP_SHAPE_REPRESENTATION ( 'BK7-LNPBSC-12.7-1310', ( #150, #259, #71 ), #163 ) ;
#138 = LOCAL_TIME ( 10, 0, 39.00000000000000000, #254 ) ;
#139 = DIRECTION ( 'NONE',  ( -0.7071067811865475727, -0.7071067811865475727, 0.000000000000000000 ) ) ;
#140 = EDGE_CURVE ( 'NONE', #16, #51, #232, .T. ) ;
#141 = ORIENTED_EDGE ( 'NONE', *, *, #85, .F. ) ;
#142 = APPROVAL ( #75, 'UNSPECIFIED' ) ;
#143 = DESIGN_CONTEXT ( 'detailed design', #90, 'design' ) ;
#144 = DIRECTION ( 'NONE',  ( 0.7071067811865475727, 0.7071067811865475727, 0.000000000000000000 ) ) ;
#145 = CARTESIAN_POINT ( 'NONE',  ( 6.349999999999998757, 6.349999999999998757, 6.349999999999999645 ) ) ;
#146 = VECTOR ( 'NONE', #15, 1000.000000000000000 ) ;
#147 = DATE_AND_TIME ( #300, #46 ) ;
#148 = EDGE_LOOP ( 'NONE', ( #113, #247, #271, #197 ) ) ;
#149 = VERTEX_POINT ( 'NONE', #235 ) ;
#150 = MANIFOLD_SOLID_BREP ( 'Í¹Ì¨-À', #69 ) ;
#151 =( NAMED_UNIT ( * ) PLANE_ANGLE_UNIT ( ) SI_UNIT ( $, .RADIAN. ) );
#152 = VERTEX_POINT ( 'NONE', #5 ) ;
#153 = CALENDAR_DATE ( 2021, 5, 1 ) ;
#154 = CC_DESIGN_APPROVAL ( #142, ( #38 ) ) ;
#155 = DIRECTION ( 'NONE',  ( -2.220446049250312588E-16, 1.000000000000000000, 0.000000000000000000 ) ) ;
#156 = EDGE_CURVE ( 'NONE', #149, #72, #108, .T. ) ;
#157 = CALENDAR_DATE ( 2021, 5, 1 ) ;
#158 = LINE ( 'NONE', #132, #136 ) ;
#159 = ADVANCED_FACE ( 'NONE', ( #171 ), #93, .F. ) ;
#160 = CARTESIAN_POINT ( 'NONE',  ( -6.349999999999998757, -6.349999999999997868, 6.349999999999999645 ) ) ;
#161 = FACE_OUTER_BOUND ( 'NONE', #74, .T. ) ;
#162 = ADVANCED_FACE ( 'NONE', ( #193 ), #67, .T. ) ;
#163 =( GEOMETRIC_REPRESENTATION_CONTEXT ( 3 ) GLOBAL_UNCERTAINTY_ASSIGNED_CONTEXT ( ( #250 ) ) GLOBAL_UNIT_ASSIGNED_CONTEXT ( ( #216, #151, #319 ) ) REPRESENTATION_CONTEXT ( 'NONE', 'WORKASPACE' ) );
#164 = EDGE_CURVE ( 'NONE', #72, #299, #12, .T. ) ;
#165 = FACE_OUTER_BOUND ( 'NONE', #282, .T. ) ;
#166 = DIRECTION ( 'NONE',  ( -0.7071067811865474617, -0.7071067811865474617, 0.000000000000000000 ) ) ;
#167 = VECTOR ( 'NONE', #245, 1000.000000000000000 ) ;
#168 = DIRECTION ( 'NONE',  ( -0.7071067811865475727, -0.7071067811865475727, 0.000000000000000000 ) ) ;
#169 = EDGE_CURVE ( 'NONE', #99, #237, #267, .T. ) ;
#170 = EDGE_LOOP ( 'NONE', ( #41, #289, #244, #21 ) ) ;
#171 = FACE_OUTER_BOUND ( 'NONE', #43, .T. ) ;
#172 = ORIENTED_EDGE ( 'NONE', *, *, #156, .F. ) ;
#173 = APPLICATION_PROTOCOL_DEFINITION ( 'international standard', 'config_control_design', 1994, #76 ) ;
#174 = LINE ( 'NONE', #47, #92 ) ;
#175 = PRODUCT_RELATED_PRODUCT_CATEGORY ( 'detail', '', ( #253 ) ) ;
#176 = PERSON ( 'UNSPECIFIED', 'UNSPECIFIED', 'UNSPECIFIED', ('UNSPECIFIED'), ('UNSPECIFIED'), ('UNSPECIFIED') ) ;
#177 = APPROVAL_PERSON_ORGANIZATION ( #20, #83, #179 ) ;
#178 = ORIENTED_EDGE ( 'NONE', *, *, #33, .F. ) ;
#179 = APPROVAL_ROLE ( '' ) ;
#180 = ORIENTED_EDGE ( 'NONE', *, *, #266, .T. ) ;
#181 = APPROVAL_ROLE ( '' ) ;
#182 = DIRECTION ( 'NONE',  ( -0.000000000000000000, -0.000000000000000000, -1.000000000000000000 ) ) ;
#183 = VECTOR ( 'NONE', #82, 1000.000000000000114 ) ;
#184 = DIRECTION ( 'NONE',  ( -6.829619984160658046E-17, 1.000000000000000000, -0.000000000000000000 ) ) ;
#185 = EDGE_CURVE ( 'NONE', #51, #131, #39, .T. ) ;
#186 = PLANE ( 'NONE',  #191 ) ;
#187 = CARTESIAN_POINT ( 'NONE',  ( 6.349999999999998757, 6.349999999999998757, 6.349999999999999645 ) ) ;
#188 = AXIS2_PLACEMENT_3D ( 'NONE', #88, #287, #60 ) ;
#189 = VECTOR ( 'NONE', #262, 1000.000000000000000 ) ;
#190 = EDGE_LOOP ( 'NONE', ( #195, #22, #265, #273 ) ) ;
#191 = AXIS2_PLACEMENT_3D ( 'NONE', #204, #285, #258 ) ;
#192 = LINE ( 'NONE', #255, #120 ) ;
#193 = FACE_OUTER_BOUND ( 'NONE', #8, .T. ) ;
#194 = DIRECTION ( 'NONE',  ( 1.000000000000000000, -2.903408047666378392E-16, 0.000000000000000000 ) ) ;
#195 = ORIENTED_EDGE ( 'NONE', *, *, #164, .T. ) ;
#196 = DIRECTION ( 'NONE',  ( 1.000000000000000000, 0.000000000000000000, 0.000000000000000000 ) ) ;
#197 = ORIENTED_EDGE ( 'NONE', *, *, #9, .T. ) ;
#198 = EDGE_CURVE ( 'NONE', #316, #202, #95, .T. ) ;
#199 = LINE ( 'NONE', #40, #146 ) ;
#200 = PLANE ( 'NONE',  #61 ) ;
#201 = CC_DESIGN_DATE_AND_TIME_ASSIGNMENT ( #317, #298, ( #297 ) ) ;
#202 = VERTEX_POINT ( 'NONE', #111 ) ;
#203 = PERSON_AND_ORGANIZATION ( #176, #281 ) ;
#204 = CARTESIAN_POINT ( 'NONE',  ( 0.000000000000000000, 0.000000000000000000, -6.349999999999999645 ) ) ;
#205 = APPROVAL_DATE_TIME ( #73, #107 ) ;
#206 = LINE ( 'NONE', #35, #215 ) ;
#207 = PERSON_AND_ORGANIZATION_ROLE ( 'classification_officer' ) ;
#208 = PLANE ( 'NONE',  #130 ) ;
#209 = PLANE ( 'NONE',  #251 ) ;
#210 = ADVANCED_FACE ( 'NONE', ( #165 ), #243, .F. ) ;
#211 = ORIENTED_EDGE ( 'NONE', *, *, #266, .F. ) ;
#212 = ORIENTED_EDGE ( 'NONE', *, *, #169, .T. ) ;
#213 = CARTESIAN_POINT ( 'NONE',  ( -6.349999999999998757, -6.349999999999997868, 6.349999999999999645 ) ) ;
#214 = ORIENTED_EDGE ( 'NONE', *, *, #198, .F. ) ;
#215 = VECTOR ( 'NONE', #304, 1000.000000000000000 ) ;
#216 =( LENGTH_UNIT ( ) NAMED_UNIT ( * ) SI_UNIT ( .MILLI., .METRE. ) );
#217 = VECTOR ( 'NONE', #139, 999.9999999999998863 ) ;
#218 = CARTESIAN_POINT ( 'NONE',  ( 6.349999999999996980, 6.349999999999996980, -6.349999999999999645 ) ) ;
#219 = CC_DESIGN_DATE_AND_TIME_ASSIGNMENT ( #147, #96, ( #38 ) ) ;
#220 = CARTESIAN_POINT ( 'NONE',  ( 0.000000000000000000, 0.000000000000000000, -6.349999999999999645 ) ) ;
#221 = AXIS2_PLACEMENT_3D ( 'NONE', #229, #275, #1 ) ;
#222 = FACE_OUTER_BOUND ( 'NONE', #170, .T. ) ;
#223 = FACE_OUTER_BOUND ( 'NONE', #307, .T. ) ;
#224 = ORIENTED_EDGE ( 'NONE', *, *, #85, .T. ) ;
#225 = APPLICATION_PROTOCOL_DEFINITION ( 'international standard', 'config_control_design', 1994, #90 ) ;
#226 = ORIENTED_EDGE ( 'NONE', *, *, #66, .F. ) ;
#227 = PERSON_AND_ORGANIZATION ( #176, #281 ) ;
#228 = SECURITY_CLASSIFICATION_LEVEL ( 'unclassified' ) ;
#229 = CARTESIAN_POINT ( 'NONE',  ( -6.349999999999999645, -6.350000000000000533, 6.349999999999999645 ) ) ;
#230 = ADVANCED_FACE ( 'NONE', ( #223 ), #13, .F. ) ;
#231 = APPROVAL_DATE_TIME ( #125, #142 ) ;
#232 = LINE ( 'NONE', #277, #306 ) ;
#233 = DATE_AND_TIME ( #127, #276 ) ;
#234 = CARTESIAN_POINT ( 'NONE',  ( 0.000000000000000000, 0.000000000000000000, 6.349999999999999645 ) ) ;
#235 = CARTESIAN_POINT ( 'NONE',  ( 6.349999999999998757, 6.349999999999998757, -6.349999999999999645 ) ) ;
#236 = CC_DESIGN_PERSON_AND_ORGANIZATION_ASSIGNMENT ( #2, #207, ( #38 ) ) ;
#237 = VERTEX_POINT ( 'NONE', #312 ) ;
#238 = LINE ( 'NONE', #213, #263 ) ;
#239 = LINE ( 'NONE', #37, #167 ) ;
#240 = VECTOR ( 'NONE', #155, 1000.000000000000000 ) ;
#241 = DIRECTION ( 'NONE',  ( -0.000000000000000000, 0.000000000000000000, 1.000000000000000000 ) ) ;
#242 = EDGE_CURVE ( 'NONE', #19, #99, #89, .T. ) ;
#243 = PLANE ( 'NONE',  #315 ) ;
#244 = ORIENTED_EDGE ( 'NONE', *, *, #185, .F. ) ;
#245 = DIRECTION ( 'NONE',  ( -2.220446049250312588E-16, 1.000000000000000000, 0.000000000000000000 ) ) ;
#246 = MECHANICAL_CONTEXT ( 'NONE', #76, 'mechanical' ) ;
#247 = ORIENTED_EDGE ( 'NONE', *, *, #115, .F. ) ;
#248 = PERSON_AND_ORGANIZATION_ROLE ( 'design_owner' ) ;
#249 = EDGE_LOOP ( 'NONE', ( #212, #65, #116 ) ) ;
#250 = UNCERTAINTY_MEASURE_WITH_UNIT (LENGTH_MEASURE( 1.000000000000000082E-05 ), #216, 'distance_accuracy_value', 'NONE');
#251 = AXIS2_PLACEMENT_3D ( 'NONE', #160, #25, #81 ) ;
#252 = ORIENTED_EDGE ( 'NONE', *, *, #33, .T. ) ;
#253 = PRODUCT ( 'BK7-LNPBSC-12.7-1310', 'BK7-LNPBSC-12.7-1310', '', ( #246 ) ) ;
#254 = COORDINATED_UNIVERSAL_TIME_OFFSET ( 8, 0, .AHEAD. ) ;
#255 = CARTESIAN_POINT ( 'NONE',  ( 6.349999999999998757, 6.349999999999998757, -6.349999999999999645 ) ) ;
#256 = COORDINATED_UNIVERSAL_TIME_OFFSET ( 8, 0, .AHEAD. ) ;
#257 = PLANE ( 'NONE',  #221 ) ;
#258 = DIRECTION ( 'NONE',  ( -2.220446049250312588E-16, 1.000000000000000000, 0.000000000000000000 ) ) ;
#259 = MANIFOLD_SOLID_BREP ( '¾µÏ', #45 ) ;
#260 = CARTESIAN_POINT ( 'NONE',  ( 6.349999999999998757, 6.349999999999998757, 6.349999999999999645 ) ) ;
#261 = CARTESIAN_POINT ( 'NONE',  ( 6.349999999999996980, 6.349999999999996980, 6.349999999999999645 ) ) ;
#262 = DIRECTION ( 'NONE',  ( 0.000000000000000000, 0.000000000000000000, -1.000000000000000000 ) ) ;
#263 = VECTOR ( 'NONE', #308, 1000.000000000000000 ) ;
#264 = CARTESIAN_POINT ( 'NONE',  ( 6.349999999999996980, 6.349999999999996980, 6.349999999999999645 ) ) ;
#265 = ORIENTED_EDGE ( 'NONE', *, *, #296, .F. ) ;
#266 = EDGE_CURVE ( 'NONE', #152, #19, #310, .T. ) ;
#267 = LINE ( 'NONE', #218, #121 ) ;
#268 = ORIENTED_EDGE ( 'NONE', *, *, #140, .T. ) ;
#269 = PERSON_AND_ORGANIZATION ( #176, #281 ) ;
#270 = COORDINATED_UNIVERSAL_TIME_OFFSET ( 8, 0, .AHEAD. ) ;
#271 = ORIENTED_EDGE ( 'NONE', *, *, #140, .F. ) ;
#272 = APPROVAL_DATE_TIME ( #233, #83 ) ;
#273 = ORIENTED_EDGE ( 'NONE', *, *, #80, .T. ) ;
#274 = PERSON_AND_ORGANIZATION_ROLE ( 'design_supplier' ) ;
#275 = DIRECTION ( 'NONE',  ( 0.000000000000000000, 1.000000000000000000, 0.000000000000000000 ) ) ;
#276 = LOCAL_TIME ( 10, 0, 39.00000000000000000, #48 ) ;
#277 = CARTESIAN_POINT ( 'NONE',  ( 6.349999999999998757, 6.349999999999998757, 6.349999999999999645 ) ) ;
#278 = DIRECTION ( 'NONE',  ( -1.000000000000000000, -6.829619984160658046E-17, 0.000000000000000000 ) ) ;
#279 = PLANE ( 'NONE',  #17 ) ;
#280 = VECTOR ( 'NONE', #3, 1000.000000000000000 ) ;
#281 = ORGANIZATION ( 'UNSPECIFIED', 'UNSPECIFIED', '' ) ;
#282 = EDGE_LOOP ( 'NONE', ( #49, #211, #224, #63 ) ) ;
#283 = SHAPE_DEFINITION_REPRESENTATION ( #101, #137 ) ;
#284 = EDGE_CURVE ( 'NONE', #237, #19, #239, .T. ) ;
#285 = DIRECTION ( 'NONE',  ( 0.000000000000000000, 0.000000000000000000, 1.000000000000000000 ) ) ;
#286 = VECTOR ( 'NONE', #194, 1000.000000000000000 ) ;
#287 = DIRECTION ( 'NONE',  ( -0.000000000000000000, 0.000000000000000000, 1.000000000000000000 ) ) ;
#288 = CC_DESIGN_PERSON_AND_ORGANIZATION_ASSIGNMENT ( #122, #52, ( #309 ) ) ;
#289 = ORIENTED_EDGE ( 'NONE', *, *, #80, .F. ) ;
#290 = CARTESIAN_POINT ( 'NONE',  ( 6.349999999999996980, 6.349999999999996980, 6.349999999999999645 ) ) ;
#291 = DIRECTION ( 'NONE',  ( 0.7071067811865475727, -0.7071067811865475727, 0.000000000000000000 ) ) ;
#292 = CARTESIAN_POINT ( 'NONE',  ( 6.349999999999999645, -6.350000000000000533, -6.349999999999999645 ) ) ;
#293 = ORIENTED_EDGE ( 'NONE', *, *, #100, .F. ) ;
#294 = CC_DESIGN_APPROVAL ( #107, ( #297 ) ) ;
#295 = ORIENTED_EDGE ( 'NONE', *, *, #87, .T. ) ;
#296 = EDGE_CURVE ( 'NONE', #131, #16, #199, .T. ) ;
#297 = PRODUCT_DEFINITION ( 'UNKNOWN', '', #309, #143 ) ;
#298 = DATE_TIME_ROLE ( 'creation_date' ) ;
#299 = VERTEX_POINT ( 'NONE', #292 ) ;
#300 = CALENDAR_DATE ( 2021, 5, 1 ) ;
#301 = DIRECTION ( 'NONE',  ( 1.000000000000000000, -2.903408047666378392E-16, 0.000000000000000000 ) ) ;
#302 = CC_DESIGN_PERSON_AND_ORGANIZATION_ASSIGNMENT ( #118, #248, ( #253 ) ) ;
#303 = DIRECTION ( 'NONE',  ( 6.829619984160658046E-17, -1.000000000000000000, 0.000000000000000000 ) ) ;
#304 = DIRECTION ( 'NONE',  ( -0.000000000000000000, -0.000000000000000000, -1.000000000000000000 ) ) ;
#305 = CARTESIAN_POINT ( 'NONE',  ( 6.349999999999998757, 6.349999999999998757, -6.349999999999999645 ) ) ;
#306 = VECTOR ( 'NONE', #129, 1000.000000000000000 ) ;
#307 = EDGE_LOOP ( 'NONE', ( #117, #226, #119, #295 ) ) ;
#308 = DIRECTION ( 'NONE',  ( 0.000000000000000000, 0.000000000000000000, -1.000000000000000000 ) ) ;
#309 = PRODUCT_DEFINITION_FORMATION_WITH_SPECIFIED_SOURCE ( 'ANY', '', #253, .NOT_KNOWN. ) ;
#310 = LINE ( 'NONE', #62, #189 ) ;
#311 = VECTOR ( 'NONE', #166, 1000.000000000000114 ) ;
#312 = CARTESIAN_POINT ( 'NONE',  ( -6.349999999999998757, -6.349999999999997868, -6.349999999999999645 ) ) ;
#313 = EDGE_LOOP ( 'NONE', ( #320, #134, #252, #180 ) ) ;
#314 = VECTOR ( 'NONE', #182, 1000.000000000000000 ) ;
#315 = AXIS2_PLACEMENT_3D ( 'NONE', #290, #114, #42 ) ;
#316 = VERTEX_POINT ( 'NONE', #261 ) ;
#317 = DATE_AND_TIME ( #153, #24 ) ;
#318 = DIRECTION ( 'NONE',  ( -0.000000000000000000, -0.000000000000000000, -1.000000000000000000 ) ) ;
#319 =( NAMED_UNIT ( * ) SI_UNIT ( $, .STERADIAN. ) SOLID_ANGLE_UNIT ( ) );
#320 = ORIENTED_EDGE ( 'NONE', *, *, #284, .F. ) ;
#321 = PERSON_AND_ORGANIZATION ( #176, #281 ) ;
ENDSEC;
END-ISO-10303-21;
